Videos

Loading...

quinta-feira, 6 de maio de 2010

Atirei o Pau no gato

e

-3-1-0-0-1-3--3-3----5-3-1--1-1---3-1-0--0-0-------5--5-5--7-5-3--33---0-1-3--0-1-3--1-0------3-1-

B
------3----------------------------------------3-1----------------------------------------3-1-----

G
--------------------------------------------------------------------------------------------------

D
--------------------------------------------------------------------------------------------------

A
--------------------------------------------------------------------------------------------------

E
--------------------------------------------------------------------------------------------------



Base:

( C G C7 F C G C )



Obs.: Essa base é improvisada mas fica boa pra tocar com os amigos...

Fuscão Preto "Triu Parada Dura"

C G7


Me disseram que ela foi vista com outro

C

Num fuscão preto pela cidade a rodar

G7

Bem vestida igual a dama da noite

F C

Cheirando álcool e fumando sem parar

G7

Meu Deus do ceu diga que isto é mentira

C

Se for verdade me esclareça por favor

G7

Daí a pouco eu mesmo vi o fuscão

F G7 C

E os dois juntos se desmanchando de amor

G7 F

Fuscão preto, você é feito de aço

C

Fez o meu peito em pedaços

G7

Também aprendeu a matar

F

Fuscão preto, com o seu ronco maldito

C F

Meu castelo tão bonito

G7 C

Você fez desmoronar

sexta-feira, 23 de abril de 2010

Download CD de Musicas

Maria Cecilia e Rodolfo Cd Ao Vivo em Goianiahttp://www.easy-share.com/1907484775/MariaCeciliaRodolfoAoVivoEmGoiania2009_www.baixemp3.org.rar
Maria Cecilia e Rodolfo Cd Ao Vivo em Campo Grando
http://www.megaupload.com/?d=6KUYH1TH
 Maria Cecilia e Rodolfo Cd Voce de Vouta  Ao Vivo
http://www.protetorlink.com/33b0d31fb6f7d7c6c5e5b06bde845eeb.html
Discografia Maria Cecilia e Rodolfo:
2008
http://oron.com/w8v92gmebulv/2008_-_Ao_Vivo_no_Estoril_Mhaneh.www.therebels.biz.rar.html
2009
http://oron.com/yw7l2qqsv5th/2009_-_Ao_Vivo_Em_Goi%C3%A2nia_Mhaneh.www.therebels.biz.rar.html
2010
http://oron.com/ate9fhy92pgg/Maria.Cec_C3_ADlia.e.Rodolfo-Ao.Vivo.2.Especial_%282010%29_Mhaneh.www.therebels.biz.rar.html

Foi sem Querer "Maria Cecilia e Rodolfo"

(intro 2x) C E7 Am Am7 F G C G




C E7

Foi sem querer

Am Am7 F

Que derramei toda emoção “hunderere”

G C G

Que sequei seu coração “hunderere”

C E7 Am G F

Me machuquei, te feri, não entendi “hunderere”

G C G

Como dói a solidão não, não, não, não, não, não



C E7 Am Am7

Agora estou sozinho precisando de você

F G C G

E você não esta por perto pra poder me ajudar

C E7 Am Am7

A estrada desta vida esta difícil sem você

F G C G

E você não esta por perto pra poder me ajudar



C E7 Am Am7 F

Hoje eu estou arrependida do que fiz “hunderere”

G C G

Venho ti pedir perdão, perdoa paixão

C E7 Am Am7 F

Ai meu coração tão solitário sem você “hunderere”

G C G

Esta ardente de paixão não, não, não, não, não, não



C E7 Am Am7

Agora estou sozinho precisando de você

F G C G

E você não esta por perto pra poder me ajudar

C E7 Am Am7

A estrada desta vida esta difícil sem você

F G C

E você não esta por perto pra poder me ajudar



( C E7 Am Am7 F G C G ) (2x)



C E7 Am Am7

Agora estou sozinho precisando de você

F G C G

E você não esta por perto pra poder me ajudar

C E7 Am Am7

A estrada desta vida esta difícil sem você

F G C

e você não esta por perto pra poder me ajudar (2x)



F G C

E você não esta por perto pra poder me ajudar



( C E7 Am Am7 F G C G ) (2x) C

Ilusão "Maria Cecilia e Rodolfo"

(intro 2x) C G Am Em F G C




C G Am Em

Chuva cai lá fora, tô pensando em você

F C

Saudade machuca o peito,

D G

O coração faz doer,

C G

Solidão, eu choro

Am Em

Minhas lágrimas caem

F C

E molham o rosto meu

D G

Nada me satisfaz

F C

Será que você já me esqueceu

F C

Entre nós dois tudo se perdeu

F C D

Não acredito que um grande amor assim

G

Tá chegando no fim

F G C G7

Tá chegando no fim



C G Am Am7

Mas uma ilusão foi essa paixão na minha vida

F Dm G G7

Você me usou, e saudade deixou com sua partida

C G Am Am7

Vou andar sozinho sem os seus carinhos não tem saída

F Dm

Chuva de verão no meu coraçã

G G7 (pausa)

Esperança perdida

C

Esperança perdida



(intro)

Mato e Morro Por Voce "Maria Cecilia e Rodolfo"

(intro 2x) D A9 Em G




(solo(

E
------------------------------
----------------------------------


B
----7-7-7-7/5---5---5-7--5----
---8-8-8-8p7--7p5----5-7--7/8-7---


G
-2------------7---7--------7--
-4-----------------7--------------


D
------------------------------
----------------------------------


A
------------------------------
----------------------------------


E
------------------------------
----------------------------------




E
-----------------------------------------------------------------


B
----7-7-7-7/5---5---5-7--7/8--7--7/5---8-7-5-7-------------------


G
-2------------7---7------------------7---------7-----------------


D
-----------------------------------------------------------------


A
-----------------------------------------------------------------


E
-----------------------------------------------------------------




D A9 Em

Meu amor depois que você foi embora

G

Eu fiquei numa deprê danada

D A9 Em

Chorei demais querendo um beijo

G

Sem um dengo sem carinho só na madrugada



Bm A9 Em

Eu sei que eu nunca fui pra você

G Bm

Aquele amor que você tanto sonhava

A9 Em

Escuta o que eu vou te dizer

G A D

Enquanto me negava como eu te amava



(refrão)

D A9 Em

Você não merece mesmo assim eu te amo

G D

Você não merece mesmo assim eu te quero

A9 Em

Você não merece mesmo assim eu sou maluco

G A9 D

Mato e morro por você



(repete tudo 2x)

Me da Uma Chance "Maria Cecilia e Rodolfo"

Intro: C G Am F C G Am F_G




C

Todo mundo sabe que eu te amo

F

Todo mundo sabe que eu te adoro

G F C G

A única pessoa que não ta nem ai é você, você!



C

Eu já não sei como te chamar atenção

F

Não sei qual o caminho pro seu coração

G F

Pare, olhe, por favor, escute

C G

Amo você, só você!



F G

Minha vida é sua faça o que quiser

F G

Meu desejo é seu pro que der e vier

Am F

Mas de uma chance pra nós

G

O amor vai acontece



C F

Vem ser feliz aqui comigo

Am G

Vem conhecer o que é o amor

C F

Deixa eu amar e ser amado

Am G

Quero seu carinho, quero seu calor